  0
SECTION
  2
HEADER
  9
$ACADVER
  1
AC1009
  9
$INSBASE
 10
0.0
 20
0.0
 30
0.0
  9
$EXTMIN
 10
-2.2620696658548769
 20
1.8891159503832751
 30
0.0
  9
$EXTMAX
 10
11.15267710217798
 20
15.03931358863227
 30
0.0
  9
$LIMMIN
 10
0.0
 20
0.0
  9
$LIMMAX
 10
12.0
 20
9.0
  9
$ORTHOMODE
 70
     0
  9
$REGENMODE
 70
     1
  9
$FILLMODE
 70
     1
  9
$QTEXTMODE
 70
     0
  9
$MIRRTEXT
 70
     1
  9
$DRAGMODE
 70
     2
  9
$LTSCALE
 40
0.6
  9
$OSMODE
 70
   111
  9
$ATTMODE
 70
     1
  9
$TEXTSIZE
 40
4.0
  9
$TRACEWID
 40
0.05
  9
$TEXTSTYLE
  7
ARIAL
  9
$CLAYER
  8
L3-10
  9
$CELTYPE
  6
BYLAYER
  9
$CECOLOR
 62
   256
  9
$DIMSCALE
 40
1.0
  9
$DIMASZ
 40
0.125
  9
$DIMEXO
 40
0.0625
  9
$DIMDLI
 40
0.25
  9
$DIMRND
 40
0.0
  9
$DIMDLE
 40
0.0
  9
$DIMEXE
 40
0.125
  9
$DIMTP
 40
0.0
  9
$DIMTM
 40
0.0
  9
$DIMTXT
 40
0.125
  9
$DIMCEN
 40
0.09
  9
$DIMTSZ
 40
0.0
  9
$DIMTOL
 70
     0
  9
$DIMLIM
 70
     0
  9
$DIMTIH
 70
     1
  9
$DIMTOH
 70
     1
  9
$DIMSE1
 70
     0
  9
$DIMSE2
 70
     0
  9
$DIMTAD
 70
     0
  9
$DIMZIN
 70
     4
  9
$DIMBLK
  1

  9
$DIMASO
 70
     1
  9
$DIMSHO
 70
     1
  9
$DIMPOST
  1

  9
$DIMAPOST
  1

  9
$DIMALT
 70
     0
  9
$DIMALTD
 70
     2
  9
$DIMALTF
 40
25.399999999999999
  9
$DIMLFAC
 40
1.0
  9
$DIMTOFL
 70
     0
  9
$DIMTVP
 40
0.0
  9
$DIMTIX
 70
     0
  9
$DIMSOXD
 70
     0
  9
$DIMSAH
 70
     0
  9
$DIMBLK1
  1

  9
$DIMBLK2
  1

  9
$DIMSTYLE
  2
FRAC
  9
$DIMCLRD
 70
   256
  9
$DIMCLRE
 70
   256
  9
$DIMCLRT
 70
   256
  9
$DIMTFAC
 40
1.0
  9
$DIMGAP
 40
0.09
  9
$LUNITS
 70
     2
  9
$LUPREC
 70
     4
  9
$SKETCHINC
 40
0.1
  9
$FILLETRAD
 40
0.5
  9
$AUNITS
 70
     0
  9
$AUPREC
 70
     0
  9
$MENU
  1
.
  9
$ELEVATION
 40
0.0
  9
$PELEVATION
 40
0.0
  9
$THICKNESS
 40
0.0
  9
$LIMCHECK
 70
     0
  9
$BLIPMODE
 70
     0
  9
$CHAMFERA
 40
0.0
  9
$CHAMFERB
 40
0.0
  9
$SKPOLY
 70
     0
  9
$TDCREATE
 40
2452392.3517971062
  9
$TDUPDATE
 40
2452554.4589965278
  9
$TDINDWG
 40
0.197759375
  9
$TDUSRTIMER
 40
0.1977568287
  9
$USRTIMER
 70
     1
  9
$ANGBASE
 50
0.0
  9
$ANGDIR
 70
     0
  9
$PDMODE
 70
     3
  9
$PDSIZE
 40
0.0
  9
$PLINEWID
 40
0.0
  9
$COORDS
 70
     2
  9
$SPLFRAME
 70
     0
  9
$SPLINETYPE
 70
     6
  9
$SPLINESEGS
 70
     8
  9
$ATTDIA
 70
     0
  9
$ATTREQ
 70
     1
  9
$HANDLING
 70
  4097
  9
$HANDSEED
  5
A96
  9
$SURFTAB1
 70
     6
  9
$SURFTAB2
 70
     6
  9
$SURFTYPE
 70
     6
  9
$SURFU
 70
     6
  9
$SURFV
 70
     6
  9
$UCSNAME
  2

  9
$UCSORG
 10
0.0
 20
0.0
 30
0.0
  9
$UCSXDIR
 10
1.0
 20
0.0
 30
0.0
  9
$UCSYDIR
 10
0.0
 20
1.0
 30
0.0
  9
$PUCSNAME
  2

  9
$PUCSORG
 10
0.0
 20
0.0
 30
0.0
  9
$PUCSXDIR
 10
1.0
 20
0.0
 30
0.0
  9
$PUCSYDIR
 10
0.0
 20
1.0
 30
0.0
  9
$USERI1
 70
     0
  9
$USERI2
 70
     0
  9
$USERI3
 70
     0
  9
$USERI4
 70
     0
  9
$USERI5
 70
     0
  9
$USERR1
 40
1.0
  9
$USERR2
 40
25.399999999999999
  9
$USERR3
 40
0.0
  9
$USERR4
 40
0.0
  9
$USERR5
 40
0.0
  9
$WORLDVIEW
 70
     1
  9
$SHADEDGE
 70
     3
  9
$SHADEDIF
 70
    70
  9
$TILEMODE
 70
     1
  9
$MAXACTVP
 70
    48
  9
$PLIMCHECK
 70
     0
  9
$PEXTMIN
 10
1.0000000000000000E+020
 20
1.0000000000000000E+020
 30
1.0000000000000000E+020
  9
$PEXTMAX
 10
-1.0000000000000000E+020
 20
-1.0000000000000000E+020
 30
-1.0000000000000000E+020
  9
$PLIMMIN
 10
0.0
 20
0.0
  9
$PLIMMAX
 10
12.0
 20
9.0
  9
$UNITMODE
 70
     0
  9
$VISRETAIN
 70
     1
  9
$PLINEGEN
 70
     0
  9
$PSLTSCALE
 70
     1
  0
ENDSEC
  0
SECTION
  2
TABLES
  0
TABLE
  2
VPORT
 70
     2
  0
VPORT
  2
*ACTIVE
 70
     0
 10
0.0
 20
0.0
 11
1.0
 21
1.0
 12
4.4448245037118319
 22
8.4639331053741849
 13
0.0
 23
0.0
 14
0.5
 24
0.5
 15
0.5
 25
0.5
 16
0.0
 26
0.0
 36
1.0
 17
0.0
 27
0.0
 37
0.0
 40
13.51063023891245
 41
1.3665594855305461
 42
50.0
 43
0.0
 44
0.0
 50
0.0
 51
0.0
 71
     0
 72
   100
 73
     1
 74
     2
 75
     0
 76
     0
 77
     0
 78
     0
  0
ENDTAB
  0
TABLE
  2
LTYPE
 70
     3
  0
LTYPE
  2
CONTINUOUS
 70
     0
  3
Solid line
 72
    65
 73
     0
 40
0.0
  0
LTYPE
  2
CENTER
 70
     0
  3
Center ____ _ ____ _ ____ _ ____ _ ____ _ ____
 72
    65
 73
     4
 40
2.0
 49
1.25
 49
-0.25
 49
0.25
 49
-0.25
  0
LTYPE
  2
HIDDEN
 70
     0
  3
Hidden __ __ __ __ __ __ __ __ __ __ __ __ __ _
 72
    65
 73
     2
 40
0.375
 49
0.25
 49
-0.125
  0
ENDTAB
  0
TABLE
  2
LAYER
 70
     7
  0
LAYER
  2
0
 70
     0
 62
     7
  6
CONTINUOUS
  0
LAYER
  2
CENTERLINE
 70
     0
 62
     1
  6
CENTER
  0
LAYER
  2
L3-10
 70
     0
 62
     2
  6
CONTINUOUS
  0
LAYER
  2
ADAPTER
 70
     0
 62
     3
  6
CONTINUOUS
  0
LAYER
  2
DIMENSION
 70
     0
 62
     1
  6
CONTINUOUS
  0
LAYER
  2
CTRSPINDLE
 70
     0
 62
     6
  6
CONTINUOUS
  0
LAYER
  2
DRIVE_TANG
 70
     0
 62
     4
  6
CONTINUOUS
  0
ENDTAB
  0
TABLE
  2
STYLE
 70
     2
  0
STYLE
  2
STANDARD
 70
     0
 40
0.0
 41
1.0
 50
0.0
 71
     0
 42
0.2
  3
txt
  4

  0
STYLE
  2
ARIAL
 70
     0
 40
0.0
 41
1.0
 50
0.0
 71
     0
 42
4.0
  3
txt
  4

  0
ENDTAB
  0
TABLE
  2
VIEW
 70
     0
  0
ENDTAB
  0
TABLE
  2
UCS
 70
     0
  0
ENDTAB
  0
TABLE
  2
APPID
 70
     1
  0
APPID
  2
ACAD
 70
     0
  0
ENDTAB
  0
TABLE
  2
DIMSTYLE
 70
     1
  0
DIMSTYLE
  2
FRAC
 70
     0
  3

  4

  5

  6

  7

 40
1.0
 41
0.125
 42
0.0625
 43
0.25
 44
0.125
 45
0.0
 46
0.0
 47
0.0
 48
0.0
140
0.125
141
0.09
142
0.0
143
25.399999999999999
144
1.0
145
0.0
146
1.0
147
0.09
 71
     0
 72
     0
 73
     1
 74
     1
 75
     0
 76
     0
 77
     0
 78
     4
170
     0
171
     2
172
     0
173
     0
174
     0
175
     0
176
   256
177
   256
178
   256
  0
ENDTAB
  0
ENDSEC
  0
SECTION
  2
BLOCKS
  0
BLOCK
  8
0
  2
$MODEL_SPACE
 70
     0
 10
0.0
 20
0.0
 30
0.0
  3
$MODEL_SPACE
  1

  0
ENDBLK
  5
21
  8
0
  0
BLOCK
 67
     1
  8
0
  2
$PAPER_SPACE
 70
     0
 10
0.0
 20
0.0
 30
0.0
  3
$PAPER_SPACE
  1

  0
ENDBLK
  5
1D
 67
     1
  8
0
  0
BLOCK
  8
0
  2
*U1
 70
     1
 10
0.0
 20
0.0
 30
0.0
  3
*U1
  1

  0
TEXT
  5
A87
  8
L3-10
 10
-2.182899818760744
 20
3.194518265876555
 30
0.0
 40
0.15748032
  1
6mm x 6mm LG. S.S.
  7
ARIAL
  0
TEXT
  5
A88
  8
L3-10
 10
-2.2518645973692011
 20
2.9293655215382191
 30
0.0
 40
0.15748032
  1
USES 3MM HEX KEY
  7
ARIAL
  0
ENDBLK
  5
A8A
  8
0
  0
ENDSEC
  0
SECTION
  2
ENTITIES
  0
LINE
  5
75
  8
L3-10
 10
0.0924497327872094
 20
15.03931358863227
 30
0.0
 11
5.3747827880033556
 21
15.03931358863227
 31
0.0
  0
LINE
  5
79
  8
CENTERLINE
 10
-0.2191397396047182
 20
13.543250548632271
 30
0.0
 11
5.6863722603952809
 21
13.543250548632271
 31
0.0
  0
LINE
  5
CE
  8
L3-10
 10
-0.455360219604719
 20
4.1831711419032747
 30
0.0
 11
5.9225927403952818
 21
4.1831711419032747
 31
0.0
  0
LINE
  5
D2
  8
L3-10
 10
3.1686556443952809
 20
3.3851789903832752
 30
0.0
 11
3.1686556443952809
 21
4.1831711419032747
 31
0.0
  0
LINE
  5
D3
  8
L3-10
 10
3.1686556443952809
 20
3.3851789903832752
 30
0.0
 11
5.6844037563952812
 21
3.3851789903832752
 31
0.0
  0
POLYLINE
  5
11B
  8
L3-10
  6
HIDDEN
 66
     1
 10
0.0
 20
0.0
 30
0.0
 70
     1
  0
VERTEX
  5
A78
  8
L3-10
  6
HIDDEN
 10
0.8815905363931621
 20
13.81884110863227
 30
0.0
  0
VERTEX
  5
A79
  8
L3-10
  6
HIDDEN
 10
0.7224782523910425
 20
13.543250548632271
 30
0.0
  0
VERTEX
  5
A7A
  8
L3-10
  6
HIDDEN
 10
0.8815905363931618
 20
13.267659988632269
 30
0.0
  0
VERTEX
  5
A7B
  8
L3-10
  6
HIDDEN
 10
1.199815104397401
 20
13.267659988632269
 30
0.0
  0
VERTEX
  5
A7C
  8
L3-10
  6
HIDDEN
 10
1.358927388399521
 20
13.543250548632271
 30
0.0
  0
VERTEX
  5
A7D
  8
L3-10
  6
HIDDEN
 10
1.199815104397401
 20
13.81884110863227
 30
0.0
  0
SEQEND
  5
A7E
  8
L3-10
  6
HIDDEN
  0
CIRCLE
  5
11C
  8
L3-10
  6
HIDDEN
 10
1.0407028203952811
 20
13.543250548632271
 30
0.0
 40
0.25590552
  0
LINE
  5
189
  8
L3-10
 10
4.0308603963952816
 20
1.8891159503832751
 30
0.0
 11
4.0308603963952816
 21
3.3851789903832752
 31
0.0
  0
LINE
  5
18A
  8
L3-10
 10
3.1686556443952809
 20
1.8891159503832751
 30
0.0
 11
4.0308603963952816
 21
1.8891159503832751
 31
0.0
  0
LINE
  5
18B
  8
ADAPTER
 10
0.3910965003952824
 20
7.8009271631832746
 30
0.0
 11
5.076136020395281
 21
7.8009271631832746
 31
0.0
  0
LINE
  5
18C
  8
ADAPTER
 10
0.3910965003952824
 20
7.8009271631832746
 30
0.0
 11
0.3910965003952824
 21
7.400927150383275
 31
0.0
  0
LINE
  5
18D
  8
ADAPTER
 10
5.076136020395281
 20
7.8009271631832746
 30
0.0
 11
5.076136020395281
 21
7.400927150383275
 31
0.0
  0
LINE
  5
225
  8
ADAPTER
 10
0.3910965003952824
 20
7.400927150383275
 30
0.0
 11
5.076136020395281
 21
7.400927150383275
 31
0.0
  0
LINE
  5
3A2
  8
CENTERLINE
 10
0.3714114603952818
 20
13.543250548632271
 30
0.0
 11
5.0958210603952807
 21
13.543250548632271
 31
0.0
  0
LINE
  5
3A5
  8
L3-10
 10
0.09244973278721
 20
12.04718750863227
 30
0.0
 11
5.3747827880033556
 21
12.04718750863227
 31
0.0
  0
ARC
  5
3A6
  8
L3-10
 10
3.6058217940930168
 20
13.543250548632271
 30
0.0
 40
2.3167709463022641
 50
319.77780315270502
 51
40.222196847294889
  0
CIRCLE
  5
3AB
  8
L3-10
  6
HIDDEN
 10
1.8674745003952811
 20
13.543250548632271
 30
0.0
 40
0.4311023760000001
  0
CIRCLE
  5
3AC
  8
L3-10
  6
HIDDEN
 10
3.599758020395281
 20
13.543250548632271
 30
0.0
 40
0.4311023760000001
  0
CIRCLE
  5
3AE
  8
L3-10
  6
HIDDEN
 10
0.2139311403952818
 20
13.543250548632271
 30
0.0
 40
0.4311023760000001
  0
CIRCLE
  5
3AF
  8
L3-10
  6
HIDDEN
 10
5.2533013803952811
 20
13.543250548632271
 30
0.0
 40
0.4311023760000001
  0
POLYLINE
  5
3B2
  8
L3-10
  6
HIDDEN
 66
     1
 10
0.0
 20
0.0
 30
0.0
 70
     1
  0
VERTEX
  5
A7F
  8
L3-10
  6
HIDDEN
 10
4.5856419843974008
 20
13.81884110863227
 30
0.0
  0
VERTEX
  5
A80
  8
L3-10
  6
HIDDEN
 10
4.7447542683995207
 20
13.543250548632271
 30
0.0
  0
VERTEX
  5
A81
  8
L3-10
  6
HIDDEN
 10
4.5856419843974008
 20
13.267659988632269
 30
0.0
  0
VERTEX
  5
A82
  8
L3-10
  6
HIDDEN
 10
4.2674174163931617
 20
13.267659988632269
 30
0.0
  0
VERTEX
  5
A83
  8
L3-10
  6
HIDDEN
 10
4.1083051323910418
 20
13.543250548632271
 30
0.0
  0
VERTEX
  5
A84
  8
L3-10
  6
HIDDEN
 10
4.2674174163931609
 20
13.81884110863227
 30
0.0
  0
SEQEND
  5
A85
  8
L3-10
  6
HIDDEN
  0
CIRCLE
  5
3B3
  8
L3-10
  6
HIDDEN
 10
4.4265297003952808
 20
13.543250548632271
 30
0.0
 40
0.25590552
  0
CIRCLE
  5
3B4
  8
L3-10
  6
HIDDEN
 10
1.0407028203952811
 20
13.543250548632271
 30
0.0
 40
1.2578740559999999
  0
CIRCLE
  5
3B5
  8
L3-10
  6
HIDDEN
 10
4.4265297003952808
 20
13.543250548632271
 30
0.0
 40
1.2578740559999999
  0
LINE
  5
3B6
  8
L3-10
 10
-0.455360219604719
 20
4.1831711419032747
 30
0.0
 11
-0.455360219604719
 21
7.4009271503832759
 31
0.0
  0
LINE
  5
3B7
  8
L3-10
  6
HIDDEN
 10
0.0924497327872081
 20
4.1831711419032747
 30
0.0
 11
0.0924497327872083
 21
7.4009271503832759
 31
0.0
  0
LINE
  5
3BA
  8
L3-10
 10
4.1083051323910409
 20
3.0930136267032751
 30
0.0
 11
4.7447542683995207
 21
3.0930136267032751
 31
0.0
  0
LINE
  5
3BB
  8
L3-10
 10
4.7526282843995213
 20
3.3725411947032762
 30
0.0
 11
4.1004311163910421
 21
3.3725411947032762
 31
0.0
  0
ARC
  5
3BC
  8
L3-10
 10
4.4265297003952808
 20
3.113518876703274
 30
0.0
 40
0.2567257299999997
 50
184.5812200852769
 51
355.41877991472307
  0
LINE
  5
3BD
  8
L3-10
 10
4.7447542683995207
 20
3.0930136267032751
 30
0.0
 11
4.7447542683995207
 21
3.3725411947032762
 31
0.0
  0
LINE
  5
3BE
  8
L3-10
 10
4.7526282843995213
 20
3.3725411947032762
 30
0.0
 11
4.7526282843995213
 21
3.3863207227032759
 31
0.0
  0
LINE
  5
3BF
  8
L3-10
 10
4.5856419843974008
 20
3.0930136267032751
 30
0.0
 11
4.5856419843974008
 21
3.3725411947032762
 31
0.0
  0
LINE
  5
3C0
  8
L3-10
 10
4.2674174163931609
 20
3.0930136267032751
 30
0.0
 11
4.2674174163931609
 21
3.3725411947032762
 31
0.0
  0
LINE
  5
3C1
  8
L3-10
 10
4.1083051323910409
 20
3.0930136267032751
 30
0.0
 11
4.1083051323910409
 21
3.3725411947032762
 31
0.0
  0
LINE
  5
3C2
  8
L3-10
 10
4.1004311163910421
 20
3.3725411947032762
 30
0.0
 11
4.1004311163910421
 21
3.3863207227032759
 31
0.0
  0
LINE
  5
3C3
  8
L3-10
 10
5.6844037563952812
 20
3.3851789903832752
 30
0.0
 11
5.6844037563952812
 21
4.1831711419032747
 31
0.0
  0
LINE
  5
3C7
  8
L3-10
 10
3.1686556443952809
 20
1.8891159503832751
 30
0.0
 11
3.1686556443952809
 21
3.3851789903832752
 31
0.0
  0
LINE
  5
3C8
  8
L3-10
 10
-0.455360219604719
 20
7.4009271503832759
 30
0.0
 11
5.9225927403952818
 21
7.400927150383275
 31
0.0
  0
LINE
  5
3E3
  8
L3-10
 10
2.2985768763952819
 20
3.3851789903832752
 30
0.0
 11
-0.2171712356047178
 21
3.3851789903832761
 31
0.0
  0
LINE
  5
3E4
  8
L3-10
 10
2.298576876395281
 20
1.8891159503832751
 30
0.0
 11
2.298576876395281
 21
3.3851789903832752
 31
0.0
  0
LINE
  5
3E5
  8
L3-10
 10
1.4363721243952809
 20
1.8891159503832751
 30
0.0
 11
1.4363721243952809
 21
3.3851789903832752
 31
0.0
  0
LINE
  5
3E6
  8
L3-10
 10
2.298576876395281
 20
1.8891159503832751
 30
0.0
 11
1.4363721243952809
 21
1.8891159503832751
 31
0.0
  0
LINE
  5
3E7
  8
L3-10
 10
2.2985768763952819
 20
3.3851789903832739
 30
0.0
 11
2.2985768763952819
 21
4.1831711419032764
 31
0.0
  0
ARC
  5
3E8
  8
L3-10
 10
1.0407028203952811
 20
3.113518876703274
 30
0.0
 40
0.2567257299999997
 50
184.5812200852769
 51
355.41877991472302
  0
LINE
  5
3E9
  8
L3-10
 10
0.7146042363910424
 20
3.3725411947032762
 30
0.0
 11
1.3668014043995209
 21
3.3725411947032762
 31
0.0
  0
LINE
  5
3EA
  8
L3-10
 10
1.358927388399521
 20
3.0930136267032751
 30
0.0
 11
0.722478252391042
 21
3.0930136267032751
 31
0.0
  0
LINE
  5
3EB
  8
L3-10
 10
1.199815104397401
 20
3.0930136267032751
 30
0.0
 11
1.199815104397401
 21
3.3725411947032762
 31
0.0
  0
LINE
  5
3EC
  8
L3-10
 10
1.358927388399521
 20
3.0930136267032751
 30
0.0
 11
1.358927388399521
 21
3.3725411947032762
 31
0.0
  0
LINE
  5
3ED
  8
L3-10
 10
1.3668014043995209
 20
3.3725411947032762
 30
0.0
 11
1.3668014043995209
 21
3.3863207227032759
 31
0.0
  0
LINE
  5
3EE
  8
L3-10
 10
0.722478252391042
 20
3.0930136267032751
 30
0.0
 11
0.722478252391042
 21
3.3725411947032762
 31
0.0
  0
LINE
  5
3EF
  8
L3-10
 10
0.8815905363931618
 20
3.0930136267032751
 30
0.0
 11
0.8815905363931618
 21
3.3725411947032762
 31
0.0
  0
LINE
  5
3F0
  8
L3-10
 10
0.7146042363910424
 20
3.3725411947032762
 30
0.0
 11
0.7146042363910424
 21
3.3863207227032759
 31
0.0
  0
LINE
  5
3F1
  8
L3-10
 10
-0.2171712356047179
 20
3.3851789903832752
 30
0.0
 11
-0.2171712356047179
 21
4.1831711419032747
 31
0.0
  0
LINE
  5
403
  8
L3-10
 10
11.15267710217798
 20
4.1831711419032747
 30
0.0
 11
8.1605510221779802
 21
4.1831711419032747
 31
0.0
  0
LINE
  5
404
  8
L3-10
 10
8.1605510221779785
 20
4.1831711419032747
 30
0.0
 11
8.1605510221779802
 21
7.400927150383275
 31
0.0
  0
LINE
  5
405
  8
L3-10
 10
11.15267710217798
 20
4.1831711419032747
 30
0.0
 11
11.15267710217798
 21
7.400927150383275
 31
0.0
  0
LINE
  5
406
  8
L3-10
 10
11.15267710217798
 20
7.400927150383275
 30
0.0
 11
8.1605510221779802
 21
7.400927150383275
 31
0.0
  0
LINE
  5
409
  8
L3-10
 10
8.3987400061779809
 20
3.3851789903832752
 30
0.0
 11
10.91448811817798
 21
3.3851789903832752
 31
0.0
  0
LINE
  5
40A
  8
L3-10
 10
9.2255116861779811
 20
1.8891159503832751
 30
0.0
 11
9.2255116861779811
 21
3.3851789903832752
 31
0.0
  0
LINE
  5
40B
  8
L3-10
 10
10.08771643817798
 20
1.8891159503832751
 30
0.0
 11
10.08771643817798
 21
3.3851789903832752
 31
0.0
  0
LINE
  5
40C
  8
L3-10
 10
9.2255116861779811
 20
1.8891159503832751
 30
0.0
 11
10.08771643817798
 21
1.8891159503832751
 31
0.0
  0
LINE
  5
40D
  8
L3-10
 10
8.3987400061779809
 20
3.3851789903832752
 30
0.0
 11
8.3987400061779809
 21
4.1831711419032747
 31
0.0
  0
LINE
  5
417
  8
L3-10
 10
10.91448811817798
 20
3.3851789903832752
 30
0.0
 11
10.91448811817798
 21
4.1831711419032747
 31
0.0
  0
LINE
  5
437
  8
ADAPTER
 10
11.107401556603181
 20
10.141084806068349
 30
0.0
 11
11.107401556603181
 21
7.8859665615833467
 31
0.0
  0
LINE
  5
438
  8
ADAPTER
 10
8.1861415271228495
 20
10.141084806068349
 30
0.0
 11
8.1861415271228477
 21
7.8859665615833467
 31
0.0
  0
LINE
  5
43D
  8
ADAPTER
 10
10.85937000586301
 20
7.400927150383275
 30
0.0
 11
8.4341730778630133
 21
7.400927150383275
 31
0.0
  0
LINE
  5
43E
  8
ADAPTER
 10
10.85937000586301
 20
7.8009271759833121
 30
0.0
 11
8.4341730778630151
 21
7.8009271759833121
 31
0.0
  0
LINE
  5
447
  8
ADAPTER
 10
11.107401556603181
 20
10.141084806068349
 30
0.0
 11
8.1861415271228495
 21
10.141084806068349
 31
0.0
  0
LINE
  5
513
  8
ADAPTER
 10
8.4341730778630133
 20
7.400927150383275
 30
0.0
 11
8.4341730778630133
 21
7.8009271759833121
 31
0.0
  0
LINE
  5
514
  8
ADAPTER
 10
10.85937000586301
 20
7.8009271759833121
 30
0.0
 11
11.107401556603181
 21
7.8859665615833467
 31
0.0
  0
LINE
  5
515
  8
ADAPTER
 10
10.85937000586301
 20
7.400927150383275
 30
0.0
 11
10.85937000586301
 21
7.8009271759833121
 31
0.0
  0
LINE
  5
51A
  8
ADAPTER
 10
8.4341730778630151
 20
7.8009271759833121
 30
0.0
 11
8.1861415271228477
 21
7.8859665615833467
 31
0.0
  0
ARC
  5
51C
  8
ADAPTER
 10
2.1967338457891721
 20
13.543250548632271
 30
0.0
 40
1.805637345393891
 50
137.81222011349499
 51
222.1877798865049
  0
LINE
  5
51F
  8
ADAPTER
 10
0.8588507461926713
 20
14.75584901263227
 30
0.0
 11
1.919340589308077
 21
14.75584901263227
 31
0.0
  0
LINE
  5
520
  8
ADAPTER
 10
0.8588507461926713
 20
12.33065208463228
 30
0.0
 11
1.9193405893080711
 21
12.33065208463228
 31
0.0
  0
ARC
  5
521
  8
ADAPTER
 10
3.270498675001388
 20
13.543250548632271
 30
0.0
 40
1.805637345393891
 50
317.81222011349502
 51
42.187779886504963
  0
LINE
  5
564
  8
L3-10
  6
HIDDEN
 10
2.1824351403952811
 20
7.8733681103832751
 30
0.0
 11
2.5367658603952821
 21
7.8733681103832751
 31
0.0
  0
LINE
  5
566
  8
L3-10
  6
HIDDEN
 10
3.2847973803952821
 20
7.8733681103832751
 30
0.0
 11
3.2847973803952821
 21
7.4009271503832768
 31
0.0
  0
LINE
  5
567
  8
L3-10
  6
HIDDEN
 10
2.1824351403952811
 20
7.8733681103832751
 30
0.0
 11
2.1824351403952811
 21
7.4009271503832759
 31
0.0
  0
LINE
  5
569
  8
L3-10
  6
HIDDEN
 10
2.930466660395282
 20
7.8733681103832751
 30
0.0
 11
2.930466660395282
 21
7.4796673103832747
 31
0.0
  0
LINE
  5
56A
  8
L3-10
  6
HIDDEN
 10
2.930466660395282
 20
7.4796673103832747
 30
0.0
 11
2.5367658603952821
 21
7.4796673103832747
 31
0.0
  0
LINE
  5
56B
  8
L3-10
  6
HIDDEN
 10
2.5367658603952821
 20
7.4796673103832747
 30
0.0
 11
2.5367658603952821
 21
7.8733681103832751
 31
0.0
  0
LINE
  5
56C
  8
L3-10
  6
HIDDEN
 10
2.930466660395282
 20
7.8733681103832751
 30
0.0
 11
3.2847973803952821
 21
7.8733681103832751
 31
0.0
  0
CIRCLE
  5
6A2
  8
L3-10
 10
1.8674745003952811
 20
2.558407310383275
 30
0.0
 40
0.11811024
  0
INSERT
  5
6A5
  8
L3-10
  2
*U1
 10
0.0
 20
0.0
 30
0.0
  0
CIRCLE
  5
6AA
  8
L3-10
 10
3.599758020395281
 20
2.558407310383275
 30
0.0
 40
0.11811024
  0
CIRCLE
  5
74F
  8
CTRSPINDLE
  6
HIDDEN
 10
2.7336162603952809
 20
13.543250548632271
 30
0.0
 40
0.4311023760000001
  0
ARC
  5
77F
  8
L3-10
 10
1.8614107266975459
 20
13.543250548632271
 30
0.0
 40
2.3167709463022641
 50
139.7778031527051
 51
220.22219684729501
  0
LINE
  5
780
  8
L3-10
  6
HIDDEN
 10
5.3747827880033547
 20
4.1831711419032747
 30
0.0
 11
5.3747827880033547
 21
7.4009271503832759
 31
0.0
  0
LINE
  5
781
  8
L3-10
 10
5.9225927403952818
 20
4.1831711419032747
 30
0.0
 11
5.9225927403952818
 21
7.4009271503832759
 31
0.0
  0
LINE
  5
782
  8
CTRSPINDLE
 10
3.1647186363952811
 20
1.8891159503832751
 30
0.0
 11
3.1647186363952811
 21
4.1831711419032764
 31
0.0
  0
LINE
  5
783
  8
CTRSPINDLE
 10
2.3025138843952808
 20
1.8891159503832751
 30
0.0
 11
2.3025138843952808
 21
4.1831711419032764
 31
0.0
  0
LINE
  5
784
  8
CTRSPINDLE
 10
3.1647186363952811
 20
1.8891159503832751
 30
0.0
 11
2.3025138843952808
 21
1.8891159503832751
 31
0.0
  0
CIRCLE
  5
785
  8
CTRSPINDLE
 10
2.7336162603952809
 20
2.558407310383275
 30
0.0
 40
0.11811024
  0
LINE
  5
881
  8
DRIVE_TANG
  6
HIDDEN
 10
2.5367658603952821
 20
7.4796673103832783
 30
0.0
 11
2.930466660395282
 21
7.4796673103832783
 31
0.0
  0
LINE
  5
882
  8
DRIVE_TANG
  6
HIDDEN
 10
2.1910965579952801
 20
9.0647067311832767
 30
0.0
 11
3.27613596279528
 21
9.0647067311832767
 31
0.0
  0
LINE
  5
884
  8
DRIVE_TANG
  6
HIDDEN
 10
2.5367658603952821
 20
7.8965964575832794
 30
0.0
 11
2.5367658603952821
 21
7.4796673103832783
 31
0.0
  0
LINE
  5
887
  8
DRIVE_TANG
  6
HIDDEN
 10
2.1910965579952801
 20
7.8965964575832794
 30
0.0
 11
2.5367658603952821
 21
7.8965964575832794
 31
0.0
  0
LINE
  5
889
  8
DRIVE_TANG
  6
HIDDEN
 10
2.1910965579952801
 20
9.0647067311832767
 30
0.0
 11
2.1910965579952801
 21
7.8965964575832794
 31
0.0
  0
LINE
  5
88A
  8
DRIVE_TANG
  6
HIDDEN
 10
2.930466660395282
 20
7.4796673103832783
 30
0.0
 11
2.930466660395282
 21
7.8965964575832741
 31
0.0
  0
LINE
  5
88D
  8
DRIVE_TANG
  6
HIDDEN
 10
2.930466660395282
 20
7.8965964575832741
 30
0.0
 11
3.2761359627952809
 21
7.8965964575832794
 31
0.0
  0
LINE
  5
88F
  8
DRIVE_TANG
  6
HIDDEN
 10
3.27613596279528
 20
9.0647067311832767
 30
0.0
 11
3.2761359627952809
 21
7.8965964575832794
 31
0.0
  0
POLYLINE
  8
0
  5
A92
  66
     1
 10
0.000000
 20
0.000000
 30
0.000000
  70
     8
  0
VERTEX
  8
0
  5
A93
 10
1.86747
 20
2.55841
 30
0.000000
  70
    32
  0
VERTEX
  8
0
  5
A94
 10
0.132145
 20
3.09301
 30
0.000000
  70
    32
  0
SEQEND
  8
0
  5
A95
  0
TEXT
  5
91E
  8
DIMENSION
 10
-1.0269334899517299
 20
10.88093840219892
 30
0.0
 40
0.15748032
  1
THE ADAPTER SHOWN IN THIS DRAWING IS ONLY TO ILLUSTRATE A TYPICAL ADAPTER
  7
ARIAL
  0
CIRCLE
  5
9E7
  8
L3-10
  6
HIDDEN
 10
2.7336162603952809
 20
13.543250548632271
 30
0.0
 40
1.0826772
  0
LINE
  5
9E8
  8
ADAPTER
 10
4.6328289195952843
 20
14.340494668632269
 30
0.0
 11
3.2900399623952459
 21
14.89374400188273
 31
0.0
  0
LINE
  5
9EA
  8
ADAPTER
 10
4.0184010243043602
 20
12.49285285481305
 30
0.0
 11
3.2900399623952459
 21
12.19275709538182
 31
0.0
  0
CIRCLE
  5
9EC
  8
ADAPTER
 10
2.7336162603952809
 20
13.543250548632271
 30
0.0
 40
1.1154999999999999
  0
CIRCLE
  5
9ED
  8
ADAPTER
 10
2.7336162603952809
 20
13.543250548632271
 30
0.0
 40
1.006219572934834
  0
CIRCLE
  5
9EF
  8
ADAPTER
 10
2.7336162603952809
 20
13.543250548632271
 30
0.0
 40
0.625
  0
LINE
  5
9F2
  8
ADAPTER
 10
4.067616194091336
 20
12.68695130863227
 30
0.0
 11
4.067616194091336
 21
12.44103287015834
 31
0.0
  0
LINE
  5
9F3
  8
ADAPTER
 10
4.2039981427153084
 20
12.68695130863227
 30
0.0
 11
4.2039981427153084
 21
12.441032870158329
 31
0.0
  0
LINE
  5
9F4
  8
ADAPTER
 10
4.4767620399632539
 20
12.68695130863227
 30
0.0
 11
4.4767620399632539
 21
12.441032870158329
 31
0.0
  0
LINE
  5
9F5
  8
ADAPTER
 10
4.6131439885872254
 20
12.68695130863227
 30
0.0
 11
4.6131439885872254
 21
12.44103287015834
 31
0.0
  0
ARC
  5
9F7
  8
ADAPTER
 10
4.5449530142752357
 20
12.48741360773764
 30
0.0
 40
0.0824692778919425
 50
214.22194995232161
 51
325.77805004767879
  0
ARC
  5
9F8
  8
ADAPTER
 10
4.1358071684033231
 20
12.48741360773764
 30
0.0
 40
0.0824692778919425
 50
214.2219499523211
 51
325.77805004767828
  0
ARC
  5
9F9
  8
ADAPTER
 10
4.340380091339286
 20
12.68068863094452
 30
0.0
 40
0.2757443010988207
 50
240.356905410038
 51
299.6430945899599
  0
LINE
  5
9FA
  8
ADAPTER
 10
4.1358071684033231
 20
12.4049443298457
 30
0.0
 11
4.5449530142752357
 21
12.4049443298457
 31
0.0
  0
LINE
  5
9FB
  8
ADAPTER
 10
4.0479311540913372
 20
12.68695130863227
 30
0.0
 11
4.6328290285872242
 21
12.68695130863227
 31
0.0
  0
LINE
  5
9FC
  8
ADAPTER
 10
4.6328289195952834
 20
12.746006428632271
 30
0.0
 11
4.0184010243043602
 21
12.746006428632271
 31
0.0
  0
LINE
  5
9FD
  8
ADAPTER
 10
4.0479311540913372
 20
12.68695130863227
 30
0.0
 11
4.0479311540913372
 21
12.746006428632271
 31
0.0
  0
LINE
  5
9FE
  8
ADAPTER
 10
4.0184010243043602
 20
12.746006428632271
 30
0.0
 11
4.0184010243043602
 21
12.49285285481305
 31
0.0
  0
LINE
  5
9FF
  8
ADAPTER
 10
4.6328289195952834
 20
14.340494668632269
 30
0.0
 11
4.6328289195952834
 21
12.746006428632271
 31
0.0
  0
LINE
  5
A00
  8
ADAPTER
 10
4.6328290285872242
 20
12.68695130863227
 30
0.0
 11
4.6328290285872242
 21
12.746006428632271
 31
0.0
  0
LINE
  5
A01
  8
L3-10
  6
HIDDEN
 10
3.8162934603952818
 20
7.2828169103832741
 30
0.0
 11
1.65093906039528
 21
7.2828169103832741
 31
0.0
  0
LINE
  5
A02
  8
ADAPTER
  6
HIDDEN
 10
3.8491162603952822
 20
8.2660847183832757
 30
0.0
 11
1.618116260395281
 21
8.2660847183832757
 31
0.0
  0
LINE
  5
A03
  8
ADAPTER
  6
HIDDEN
 10
1.65093906039528
 20
7.2828169103832741
 30
0.0
 11
3.8162934603952818
 21
7.2828169103832741
 31
0.0
  0
LINE
  5
A04
  8
ADAPTER
  6
HIDDEN
 10
1.743116260395281
 20
7.4805940254843319
 30
0.0
 11
3.7241162603952822
 21
7.4805940254843319
 31
0.0
  0
LINE
  5
A05
  8
ADAPTER
 10
1.2729862923952799
 20
10.14108471838327
 30
0.0
 11
4.1942462283952811
 21
10.14108471838327
 31
0.0
  0
LINE
  5
A06
  8
ADAPTER
  6
HIDDEN
 10
1.743116260395281
 20
8.2660847183832757
 30
0.0
 11
1.743116260395281
 21
7.4805940254843319
 31
0.0
  0
LINE
  5
A07
  8
ADAPTER
 10
1.2729862923952799
 20
10.14108471838327
 30
0.0
 11
1.2729862923952799
 21
7.8009271631832737
 31
0.0
  0
LINE
  5
A08
  8
L3-10
  6
HIDDEN
 10
1.65093906039528
 20
7.2828169103832741
 30
0.0
 11
1.65093906039528
 21
7.4009271503832741
 31
0.0
  0
LINE
  5
A09
  8
ADAPTER
  6
HIDDEN
 10
1.65093906039528
 20
7.4009271503832741
 30
0.0
 11
1.65093906039528
 21
7.2828169103832741
 31
0.0
  0
LINE
  5
A0A
  8
ADAPTER
  6
HIDDEN
 10
2.1086162603952809
 20
7.2828169103832741
 30
0.0
 11
2.1086162603952809
 21
7.4805940254843319
 31
0.0
  0
LINE
  5
A0B
  8
ADAPTER
  6
HIDDEN
 10
3.3586162603952809
 20
7.2828169103832741
 30
0.0
 11
3.3586162603952809
 21
7.4805940254843319
 31
0.0
  0
LINE
  5
A0C
  8
ADAPTER
  6
HIDDEN
 10
1.618116260395281
 20
10.14108471838327
 30
0.0
 11
1.618116260395281
 21
8.2660847183832757
 31
0.0
  0
LINE
  5
A0D
  8
ADAPTER
 10
4.1942462283952819
 20
8.7139193183832742
 30
0.0
 11
4.1942462283952819
 21
7.8009271631832737
 31
0.0
  0
LINE
  5
A0E
  8
ADAPTER
  6
HIDDEN
 10
3.7241162603952822
 20
8.2660847183832757
 30
0.0
 11
3.7241162603952822
 21
7.4805940254843319
 31
0.0
  0
LINE
  5
A0F
  8
L3-10
  6
HIDDEN
 10
3.8162934603952818
 20
7.2828169103832741
 30
0.0
 11
3.8162934603952818
 21
7.4009271503832741
 31
0.0
  0
LINE
  5
A10
  8
ADAPTER
  6
HIDDEN
 10
3.8162934603952818
 20
7.2828169103832741
 30
0.0
 11
3.8162934603952818
 21
7.4009271503832741
 31
0.0
  0
LINE
  5
A12
  8
ADAPTER
 10
4.6328289195952834
 20
10.042659518383269
 30
0.0
 11
4.6328289195952834
 21
8.7139193183832742
 31
0.0
  0
LINE
  5
A13
  8
ADAPTER
  6
HIDDEN
 10
3.6485769195952811
 20
10.042659518383269
 30
0.0
 11
3.6485769195952811
 21
8.7139193183832742
 31
0.0
  0
LINE
  5
A14
  8
ADAPTER
  6
HIDDEN
 10
3.8491162603952822
 20
10.14108471838327
 30
0.0
 11
3.8491162603952822
 21
8.2660847183832757
 31
0.0
  0
LINE
  5
A15
  8
ADAPTER
 10
4.6328289195952834
 20
8.7139193183832742
 30
0.0
 11
3.6485769195952811
 21
8.7139193183832742
 31
0.0
  0
POLYLINE
  5
A16
  8
ADAPTER
 66
     1
 10
0.0
 20
0.0
 30
0.0
 70
     1
  0
VERTEX
  5
A8B
  8
ADAPTER
 10
4.2039981427153101
 20
9.6145098826352431
 30
0.0
  0
VERTEX
  5
A8C
  8
ADAPTER
 10
4.0676161940913369
 20
9.3782894183832752
 30
0.0
  0
VERTEX
  5
A8D
  8
ADAPTER
 10
4.2039981427153101
 20
9.1420689541313074
 30
0.0
  0
VERTEX
  5
A8E
  8
ADAPTER
 10
4.4767620399632539
 20
9.1420689541313074
 30
0.0
  0
VERTEX
  5
A8F
  8
ADAPTER
 10
4.6131439885872254
 20
9.3782894183832752
 30
0.0
  0
VERTEX
  5
A90
  8
ADAPTER
 10
4.4767620399632539
 20
9.6145098826352431
 30
0.0
  0
SEQEND
  5
A91
  8
ADAPTER
  0
CIRCLE
  5
A17
  8
ADAPTER
 10
4.3403800913392798
 20
9.3782894183832752
 30
0.0
 40
0.219347573948256
  0
LINE
  5
A18
  8
ADAPTER
 10
3.6485769195952811
 20
10.04265951838328
 30
0.0
 11
4.6328289195952834
 21
10.042659518383269
 31
0.0
  0
LINE
  5
A19
  8
ADAPTER
 10
4.1942462283952811
 20
10.14108471838327
 30
0.0
 11
4.1942462283952811
 21
10.042659518383269
 31
0.0
  0
LINE
  5
A1E
  8
ADAPTER
  6
HIDDEN
 10
10.63727154186301
 20
8.2660847311833123
 30
0.0
 11
10.63727154186301
 21
7.4805940382843694
 31
0.0
  0
LINE
  5
A1F
  8
ADAPTER
  6
HIDDEN
 10
8.6562715418630134
 20
8.2660847311833123
 30
0.0
 11
8.6562715418630134
 21
7.4805940382843694
 31
0.0
  0
LINE
  5
A20
  8
ADAPTER
  6
HIDDEN
 10
10.76227154186301
 20
8.2660847311833123
 30
0.0
 11
8.5312715418630134
 21
8.2660847311833123
 31
0.0
  0
LINE
  5
A21
  8
ADAPTER
  6
HIDDEN
 10
8.5312715418630134
 20
10.141084731183311
 30
0.0
 11
8.5312715418630134
 21
8.2660847311833123
 31
0.0
  0
LINE
  5
A22
  8
ADAPTER
  6
HIDDEN
 10
10.76227154186301
 20
10.141084731183311
 30
0.0
 11
10.76227154186301
 21
8.2660847311833123
 31
0.0
  0
LINE
  5
A23
  8
ADAPTER
  6
HIDDEN
 10
8.5640943418630133
 20
7.2828169231833106
 30
0.0
 11
10.72944874186301
 21
7.2828169231833106
 31
0.0
  0
LINE
  5
A24
  8
ADAPTER
  6
HIDDEN
 10
8.6562715418630134
 20
7.4805940382843694
 30
0.0
 11
10.63727154186301
 21
7.4805940382843694
 31
0.0
  0
LINE
  5
A25
  8
ADAPTER
  6
HIDDEN
 10
8.5640943418630133
 20
7.4009271631833107
 30
0.0
 11
8.5640943418630133
 21
7.2828169231833106
 31
0.0
  0
LINE
  5
A26
  8
ADAPTER
  6
HIDDEN
 10
9.0217715418630142
 20
7.2828169231833106
 30
0.0
 11
9.0217715418630142
 21
7.4805940382843694
 31
0.0
  0
LINE
  5
A27
  8
ADAPTER
  6
HIDDEN
 10
10.271771541863011
 20
7.2828169231833106
 30
0.0
 11
10.271771541863011
 21
7.4805940382843694
 31
0.0
  0
LINE
  5
A28
  8
ADAPTER
  6
HIDDEN
 10
10.72944874186301
 20
7.2828169231833106
 30
0.0
 11
10.72944874186301
 21
7.4009271631833107
 31
0.0
  0
CIRCLE
  5
A29
  8
ADAPTER
 10
2.7336162603952809
 20
13.543250548632271
 30
0.0
 40
1.4606299679999979
  0
LINE
  5
A2A
  8
ADAPTER
 10
3.6247242678075131
 20
14.75584901263227
 30
0.0
 11
4.6083817745978903
 21
14.75584901263227
 31
0.0
  0
LINE
  5
A2B
  8
ADAPTER
 10
3.6247242678075171
 20
12.33065208463228
 30
0.0
 11
4.6083817745978903
 21
12.33065208463228
 31
0.0
  0
ENDSEC
  0
EOF
